Tablatures: Frederick & Bill


by Pekka Pohjola and Jim Pembroke. Album: Tombstone Valentine (1970)
   
Intro: 

||----------------------------------------------------------------------------||
||----------------------5---4-----------3-----2-------1----0------------------||
||.---4-4-4-4-4----5------------5----4-------------2-------------------------.||
||.----------------------------------------------------------2-2-2-2---------.||
||----------------------------------------------------------------------------||
||----------------------------------------------------------------------------||

Verse:
     Stepney and Cricklewood    on      a bright and cheerful night

||----------------------------------|-----------------------------------------||
||----7---6---5------------------5--|----4---3---------------3----------------||
||.---------------4------5---6------|------------2---3---4--------------------||
||.---------------------------------|-----------------------------------------||
||----------------------------------|-----------------------------------------||
||----------------------------------|-----------------------------------------||



||-----------------------------------|----------------------------------------||
||-----------------------------------|-----------3---------3---5---6----------||
||-----------------------------------|-------2-------4------------------------||
||------------0---------0---2---3----|---4------------------------------------||
||--------0-------2------------------|----------------------------------------||
||----2------------------------------|----------------------------------------||


     Watching a  bruiser   who's mind    is bent upon a fight

||----------------------------------|-----------------------------------------||
||----7---6---5------------------5--|----4---3---------------3----------------||
||----------------4------5---6------|------------2---3---4--------------------||
||----------------------------------|-----------------------------------------||
||----------------------------------|-----------------------------------------||
||----------------------------------|-----------------------------------------||




||-----------------------------------|----------------------------------------||
||-----------------------------------|-----------3----------3---5-------------||
||-----------------------------------|-------2-------4------------------------||
||------------0---------0---2---3----|---4------------------------------------||
||--------0-------2------------------|----------------------------------------||
||----2------------------------------|----------------------------------------||





  Frederick and Bill on the hunt For a fight with a Pakistani or a Jew 

||----------------------------------------------------------------------------||
||----------------------------------------------------------------------------||
||---------------------4--3-------------2-----1-------0-----------------------||
||----4-4-4-4-4----5-------------5---4-------------2--------4-----------------||
||------------------------------------------------------------2-2-2-2---------||
||----------------------------------------------------------------------------||



||----------------------------------------------------------------------------||
||---------------------5--4-------------3-----2-------1----0------------------||
||----4-4-4-4-4----5------------5----4-------------2-------------------------.||
||-----------------------------------------------------------2-2-2-2---------.||
||----------------------------------------------------------------------------||
||----------------------------------------------------------------------------||



SOLO:
                            Drms            D.S. 
||:   E7 (+9)  |   %    :||     -      |    -    ||

Transcribed by Kari Herranen